Download Apostila Contra Baixo Escalas PDF

TitleApostila Contra Baixo Escalas
File Size53.2 KB
Total Pages4
Document Text Contents
Page 1

DESENHO DAS ESCALAS (Ex.: G) CONTRA-BAIXODESENHO DAS ESCALAS (Ex.: G) CONTRA-BAIXO

Escala Maior Escala Maior 

G|-----------|G|-----------|

D|--2--4-5---|D|--2--4-5---|

A|--2-3--5---|A|--2-3--5---|

E|----3--5---|E|----3--5---|

G|-----------|G|-----------|

D|---4-5-----|D|---4-5-----|

A|--3--5--7--|A|--3--5--7--|

E|--3--5--7--|E|--3--5--7--|

Penta Maior Penta Maior 

G|-----------|G|-----------|

D|--2----5---|D|--2----5---|

A|--2----5---|A|--2----5---|

E|----3--5---|E|----3--5---|

Penta(blues) Maior Penta(blues) Maior 

G|-----------|G|-----------|

D|--2----5---|D|--2----5---|

A|--2--4-5---|A|--2--4-5---|

E|----3--5---|E|----3--5---|

Escala Menor Escala Menor 

G|-----------|G|-----------|

D|--3--5-----|D|--3--5-----|

A|--3--5-6---|A|--3--5-6---|

E|--3--5-6---|E|--3--5-6---|

Penta Menor Penta Menor 

G|-----------|G|-----------|

D|--3--5-----|D|--3--5-----|

A|--3--5-----|A|--3--5-----|

E|--3----6---|E|--3----6---|

Penta(blues) Menor Penta(blues) Menor 

G|-----------|G|-----------|

D|--3---5----|D|--3---5----|

A|--3-4-5----|A|--3-4-5----|

E|--3-----6--|E|--3-----6--|

Similer Documents